ISO-10303-21;
HEADER;
/****************************************************************
 * Generated by software with PDE/Lib inside                    *
 * PDElib Version v51a, created Fri 05/18/2009                  *
 * International Technegroup Inc. (www.iti-oh.com)              *
 ****************************************************************/
FILE_DESCRIPTION((''),'2;1');
FILE_NAME('Alliance_Shaft.stp','2011-05-03T14:37:18',('Alliance'),(''),'Autodesk Inventor 2010','Autodesk Inventor 2010','');
FILE_SCHEMA(('AUTOMOTIVE_DESIGN { 1 0 10303 214 1 1 1 1 }'));
ENDSEC;
DATA;
#5=APPLICATION_CONTEXT('automotive design');
#6=APPLICATION_PROTOCOL_DEFINITION('International Standard','automotive_design',2001,#5);
#7=PRODUCT_CONTEXT('',#5,'mechanical');
#8=PRODUCT('ASTM A 269 Tube 1 1_4 x 0.938 - 10','ASTM A 269 Tube 1 1_4 x 0.938 - 10',$,(#7));
#9=PRODUCT_RELATED_PRODUCT_CATEGORY('part',$,(#8));
#10=PRODUCT_DEFINITION_FORMATION('',$,#8);
#11=PRODUCT_DEFINITION_CONTEXT('part definition',#5,'design');
#12=PRODUCT_DEFINITION('',$,#10,#11);
#18=(NAMED_UNIT(*)PLANE_ANGLE_UNIT()SI_UNIT($,.RADIAN.));
#19=DIMENSIONAL_EXPONENTS(0.0,0.0,0.0,0.0,0.0,0.0,0.0);
#20=PLANE_ANGLE_MEASURE_WITH_UNIT(PLANE_ANGLE_MEASURE(0.017453292500000),#18);
#24=(CONVERSION_BASED_UNIT('DEGREE',#20)NAMED_UNIT(#19)PLANE_ANGLE_UNIT());
#28=(NAMED_UNIT(*)SI_UNIT($,.STERADIAN.)SOLID_ANGLE_UNIT());
#32=(LENGTH_UNIT()NAMED_UNIT(*)SI_UNIT(.MILLI.,.METRE.));
#34=UNCERTAINTY_MEASURE_WITH_UNIT(LENGTH_MEASURE(0.010000000000000),#32,'DISTANCE_ACCURACY_VALUE','');
#36=(GEOMETRIC_REPRESENTATION_CONTEXT(3)GLOBAL_UNCERTAINTY_ASSIGNED_CONTEXT((#34))GLOBAL_UNIT_ASSIGNED_CONTEXT((#24,#28,#32))REPRESENTATION_CONTEXT('None','None'));
#37=AXIS2_PLACEMENT_3D('',#38,#39,#40);
#38=CARTESIAN_POINT('',(0.0,0.0,0.0));
#39=DIRECTION('',(0.0,0.0,1.0));
#40=DIRECTION('',(1.0,0.0,0.0));
#41=SHAPE_REPRESENTATION('',(#37),#36);
#42=PRODUCT_DEFINITION_SHAPE('','',#12);
#43=SHAPE_DEFINITION_REPRESENTATION(#42,#41);
#49=(NAMED_UNIT(*)PLANE_ANGLE_UNIT()SI_UNIT($,.RADIAN.));
#50=DIMENSIONAL_EXPONENTS(0.0,0.0,0.0,0.0,0.0,0.0,0.0);
#51=PLANE_ANGLE_MEASURE_WITH_UNIT(PLANE_ANGLE_MEASURE(0.017453292500000),#49);
#55=(CONVERSION_BASED_UNIT('DEGREE',#51)NAMED_UNIT(#50)PLANE_ANGLE_UNIT());
#59=(NAMED_UNIT(*)SI_UNIT($,.STERADIAN.)SOLID_ANGLE_UNIT());
#63=(LENGTH_UNIT()NAMED_UNIT(*)SI_UNIT(.MILLI.,.METRE.));
#65=UNCERTAINTY_MEASURE_WITH_UNIT(LENGTH_MEASURE(0.000001000000000),#63,'DISTANCE_ACCURACY_VALUE','');
#67=(GEOMETRIC_REPRESENTATION_CONTEXT(3)GLOBAL_UNCERTAINTY_ASSIGNED_CONTEXT((#65))GLOBAL_UNIT_ASSIGNED_CONTEXT((#55,#59,#63))REPRESENTATION_CONTEXT('','3D'));
#68=CARTESIAN_POINT('',(330.0,-9.999999999999996,-1.224647E-015));
#69=CARTESIAN_POINT('',(327.896987833403560,-6.500000000000028,-7.960204E-016));
#70=CARTESIAN_POINT('',(330.0,-9.999999999999993,-9.999999999999996));
#71=CARTESIAN_POINT('',(327.896987833403560,-6.500000000000024,-6.500000000000027));
#72=CARTESIAN_POINT('',(330.0,1.224647E-015,-9.999999999999996));
#73=CARTESIAN_POINT('',(327.896987833403560,7.960204E-016,-6.500000000000028));
#74=CARTESIAN_POINT('',(330.0,9.999999999999996,-9.999999999999993));
#75=CARTESIAN_POINT('',(327.896987833403560,6.500000000000027,-6.500000000000024));
#76=CARTESIAN_POINT('',(330.0,9.999999999999996,1.224647E-015));
#77=CARTESIAN_POINT('',(327.896987833403560,6.500000000000028,7.960204E-016));
#78=CARTESIAN_POINT('',(330.0,9.999999999999993,9.999999999999996));
#79=CARTESIAN_POINT('',(327.896987833403560,6.500000000000024,6.500000000000027));
#80=CARTESIAN_POINT('',(330.0,-1.224647E-015,9.999999999999996));
#81=CARTESIAN_POINT('',(327.896987833403560,-7.960204E-016,6.500000000000028));
#82=CARTESIAN_POINT('',(330.0,-9.999999999999996,9.999999999999993));
#83=CARTESIAN_POINT('',(327.896987833403560,-6.500000000000027,6.500000000000024));
#84=CARTESIAN_POINT('',(330.0,-9.999999999999996,-1.224647E-015));
#85=CARTESIAN_POINT('',(327.896987833403560,-6.500000000000028,-7.960204E-016));
#93=(BOUNDED_SURFACE()B_SPLINE_SURFACE(1,2,((#68,#70,#72,#74,#76,#78,#80,#82,#84),(#69,#71,#73,#75,#77,#79,#81,#83,#85)),.UNSPECIFIED.,.F.,.T.,.U.)B_SPLINE_SURFACE_WITH_KNOTS((2,2),(3,2,2,2,3),(-1.166633397215330,-0.349990019164605),(0.0,7.853981633974483,15.707963267948966,23.561944901923447,31.415926535897931),.UNSPECIFIED.)GEOMETRIC_REPRESENTATION_ITEM()RATIONAL_B_SPLINE_SURFACE(((1.0,0.707106781186548,1.0,0.707106781186548,1.0,0.707106781186548,1.0,0.707106781186548,1.0),(1.0,0.707106781186548,1.0,0.707106781186548,1.0,0.707106781186548,1.0,0.707106781186548,1.0)))REPRESENTATION_ITEM('')SURFACE());
#94=CARTESIAN_POINT('',(327.896987833403560,6.500000000000000,7.960204E-016));
#95=VERTEX_POINT('',#94);
#96=CARTESIAN_POINT('',(327.896987833403560,0.0,0.0));
#97=DIRECTION('',(1.0,0.0,0.0));
#98=DIRECTION('',(0.0,-1.0,0.0));
#99=AXIS2_PLACEMENT_3D('',#96,#97,#98);
#100=CIRCLE('',#99,6.500000000000000);
#101=EDGE_CURVE('',#95,#95,#100,.T.);
#102=ORIENTED_EDGE('',*,*,#101,.F.);
#103=EDGE_LOOP('',(#102));
#104=FACE_OUTER_BOUND('',#103,.T.);
#105=CARTESIAN_POINT('',(330.0,10.0,0.0));
#106=VERTEX_POINT('',#105);
#107=CARTESIAN_POINT('',(330.0,0.0,0.0));
#108=DIRECTION('',(1.0,0.0,0.0));
#109=DIRECTION('',(0.0,1.0,0.0));
#110=AXIS2_PLACEMENT_3D('',#107,#108,#109);
#111=CIRCLE('',#110,10.0);
#112=EDGE_CURVE('',#106,#106,#111,.T.);
#113=ORIENTED_EDGE('',*,*,#112,.T.);
#114=EDGE_LOOP('',(#113));
#115=FACE_BOUND('',#114,.T.);
#116=ADVANCED_FACE('',(#104,#115),#93,.F.);
#117=CARTESIAN_POINT('',(400.0,-10.0,-1.224647E-015));
#118=CARTESIAN_POINT('',(330.0,-10.0,-1.224647E-015));
#119=CARTESIAN_POINT('',(400.0,-9.999999999999996,-10.0));
#120=CARTESIAN_POINT('',(330.0,-9.999999999999996,-10.0));
#121=CARTESIAN_POINT('',(400.0,1.224647E-015,-10.0));
#122=CARTESIAN_POINT('',(330.0,1.224647E-015,-10.0));
#123=CARTESIAN_POINT('',(400.0,10.0,-9.999999999999996));
#124=CARTESIAN_POINT('',(330.0,10.0,-9.999999999999996));
#125=CARTESIAN_POINT('',(400.0,10.0,1.224647E-015));
#126=CARTESIAN_POINT('',(330.0,10.0,1.224647E-015));
#127=CARTESIAN_POINT('',(400.0,9.999999999999996,10.0));
#128=CARTESIAN_POINT('',(330.0,9.999999999999996,10.0));
#129=CARTESIAN_POINT('',(400.0,-1.224647E-015,10.0));
#130=CARTESIAN_POINT('',(330.0,-1.224647E-015,10.0));
#131=CARTESIAN_POINT('',(400.0,-10.0,9.999999999999996));
#132=CARTESIAN_POINT('',(330.0,-10.0,9.999999999999996));
#133=CARTESIAN_POINT('',(400.0,-10.0,-1.224647E-015));
#134=CARTESIAN_POINT('',(330.0,-10.0,-1.224647E-015));
#142=(BOUNDED_SURFACE()B_SPLINE_SURFACE(1,2,((#117,#119,#121,#123,#125,#127,#129,#131,#133),(#118,#120,#122,#124,#126,#128,#130,#132,#134)),.UNSPECIFIED.,.F.,.T.,.U.)B_SPLINE_SURFACE_WITH_KNOTS((2,2),(3,2,2,2,3),(-3.500000000000000,3.500000000000000),(0.0,15.707963267948966,31.415926535897931,47.123889803846893,62.831853071795862),.UNSPECIFIED.)GEOMETRIC_REPRESENTATION_ITEM()RATIONAL_B_SPLINE_SURFACE(((1.0,0.707106781186548,1.0,0.707106781186548,1.0,0.707106781186548,1.0,0.707106781186548,1.0),(1.0,0.707106781186548,1.0,0.707106781186548,1.0,0.707106781186548,1.0,0.707106781186548,1.0)))REPRESENTATION_ITEM('')SURFACE());
#143=CARTESIAN_POINT('',(400.0,10.0,0.0));
#144=VERTEX_POINT('',#143);
#145=CARTESIAN_POINT('',(400.0,0.0,0.0));
#146=DIRECTION('',(-1.0,0.0,0.0));
#147=DIRECTION('',(0.0,1.0,0.0));
#148=AXIS2_PLACEMENT_3D('',#145,#146,#147);
#149=CIRCLE('',#148,10.0);
#150=EDGE_CURVE('',#144,#144,#149,.T.);
#151=ORIENTED_EDGE('',*,*,#150,.F.);
#152=EDGE_LOOP('',(#151));
#153=FACE_OUTER_BOUND('',#152,.T.);
#154=ORIENTED_EDGE('',*,*,#112,.F.);
#155=EDGE_LOOP('',(#154));
#156=FACE_BOUND('',#155,.T.);
#157=ADVANCED_FACE('',(#153,#156),#142,.F.);
#158=CARTESIAN_POINT('',(120.0,6.500000000000000,-7.960204E-016));
#159=CARTESIAN_POINT('',(327.896987833403560,6.500000000000000,-7.960204E-016));
#160=CARTESIAN_POINT('',(120.0,6.499999999999996,-6.499999999999999));
#161=CARTESIAN_POINT('',(327.896987833403560,6.499999999999996,-6.499999999999999));
#162=CARTESIAN_POINT('',(120.0,-7.960204E-016,-6.500000000000000));
#163=CARTESIAN_POINT('',(327.896987833403560,-7.960204E-016,-6.500000000000000));
#164=CARTESIAN_POINT('',(120.0,-6.499999999999999,-6.499999999999996));
#165=CARTESIAN_POINT('',(327.896987833403560,-6.499999999999999,-6.499999999999996));
#166=CARTESIAN_POINT('',(120.0,-6.500000000000000,7.960204E-016));
#167=CARTESIAN_POINT('',(327.896987833403560,-6.500000000000000,7.960204E-016));
#168=CARTESIAN_POINT('',(120.0,-6.499999999999996,6.499999999999999));
#169=CARTESIAN_POINT('',(327.896987833403560,-6.499999999999996,6.499999999999999));
#170=CARTESIAN_POINT('',(120.0,7.960204E-016,6.500000000000000));
#171=CARTESIAN_POINT('',(327.896987833403560,7.960204E-016,6.500000000000000));
#172=CARTESIAN_POINT('',(120.0,6.499999999999999,6.499999999999996));
#173=CARTESIAN_POINT('',(327.896987833403560,6.499999999999999,6.499999999999996));
#174=CARTESIAN_POINT('',(120.0,6.500000000000000,-7.960204E-016));
#175=CARTESIAN_POINT('',(327.896987833403560,6.500000000000000,-7.960204E-016));
#183=(BOUNDED_SURFACE()B_SPLINE_SURFACE(1,2,((#158,#160,#162,#164,#166,#168,#170,#172,#174),(#159,#161,#163,#165,#167,#169,#171,#173,#175)),.UNSPECIFIED.,.F.,.T.,.U.)B_SPLINE_SURFACE_WITH_KNOTS((2,2),(3,2,2,2,3),(-43.421306079745435,-11.437154105375654),(0.0,10.210176124166829,20.420352248333657,30.630528372500482,40.840704496667314),.UNSPECIFIED.)GEOMETRIC_REPRESENTATION_ITEM()RATIONAL_B_SPLINE_SURFACE(((1.0,0.707106781186548,1.0,0.707106781186548,1.0,0.707106781186548,1.0,0.707106781186548,1.0),(1.0,0.707106781186548,1.0,0.707106781186548,1.0,0.707106781186548,1.0,0.707106781186548,1.0)))REPRESENTATION_ITEM('')SURFACE());
#184=ORIENTED_EDGE('',*,*,#101,.T.);
#185=EDGE_LOOP('',(#184));
#186=FACE_OUTER_BOUND('',#185,.T.);
#187=CARTESIAN_POINT('',(120.0,6.500000000000000,7.960204E-016));
#188=VERTEX_POINT('',#187);
#189=CARTESIAN_POINT('',(120.0,0.0,0.0));
#190=DIRECTION('',(1.0,0.0,0.0));
#191=DIRECTION('',(0.0,-1.0,0.0));
#192=AXIS2_PLACEMENT_3D('',#189,#190,#191);
#193=CIRCLE('',#192,6.500000000000000);
#194=EDGE_CURVE('',#188,#188,#193,.T.);
#195=ORIENTED_EDGE('',*,*,#194,.F.);
#196=EDGE_LOOP('',(#195));
#197=FACE_BOUND('',#196,.T.);
#198=ADVANCED_FACE('',(#186,#197),#183,.F.);
#199=CARTESIAN_POINT('',(120.0,0.0,0.0));
#200=DIRECTION('',(-1.0,0.0,0.0));
#201=DIRECTION('',(0.0,0.0,1.0));
#202=AXIS2_PLACEMENT_3D('',#199,#200,#201);
#203=PLANE('',#202);
#204=CARTESIAN_POINT('',(120.0,1.469576E-015,-12.000000000000002));
#205=VERTEX_POINT('',#204);
#206=CARTESIAN_POINT('',(120.0,0.0,0.0));
#207=DIRECTION('',(1.0,0.0,0.0));
#208=DIRECTION('',(0.0,0.0,1.0));
#209=AXIS2_PLACEMENT_3D('',#206,#207,#208);
#210=CIRCLE('',#209,12.000000000000002);
#211=EDGE_CURVE('',#205,#205,#210,.T.);
#212=ORIENTED_EDGE('',*,*,#211,.F.);
#213=EDGE_LOOP('',(#212));
#214=FACE_OUTER_BOUND('',#213,.T.);
#215=ORIENTED_EDGE('',*,*,#194,.T.);
#216=EDGE_LOOP('',(#215));
#217=FACE_BOUND('',#216,.T.);
#218=ADVANCED_FACE('',(#214,#217),#203,.T.);
#219=CARTESIAN_POINT('',(110.0,13.000000000000004,-1.592041E-015));
#220=CARTESIAN_POINT('',(110.600860619027540,12.000000000000032,-1.469576E-015));
#221=CARTESIAN_POINT('',(110.0,12.999999999999998,-13.000000000000002));
#222=CARTESIAN_POINT('',(110.600860619027540,12.000000000000025,-12.000000000000030));
#223=CARTESIAN_POINT('',(110.0,-1.592041E-015,-13.000000000000004));
#224=CARTESIAN_POINT('',(110.600860619027540,-1.469576E-015,-12.000000000000032));
#225=CARTESIAN_POINT('',(110.0,-13.000000000000002,-12.999999999999998));
#226=CARTESIAN_POINT('',(110.600860619027540,-12.000000000000030,-12.000000000000025));
#227=CARTESIAN_POINT('',(110.0,-13.000000000000004,1.592041E-015));
#228=CARTESIAN_POINT('',(110.600860619027540,-12.000000000000032,1.469576E-015));
#229=CARTESIAN_POINT('',(110.0,-12.999999999999998,13.000000000000002));
#230=CARTESIAN_POINT('',(110.600860619027540,-12.000000000000025,12.000000000000030));
#231=CARTESIAN_POINT('',(110.0,1.592041E-015,13.000000000000004));
#232=CARTESIAN_POINT('',(110.600860619027540,1.469576E-015,12.000000000000032));
#233=CARTESIAN_POINT('',(110.0,13.000000000000002,12.999999999999998));
#234=CARTESIAN_POINT('',(110.600860619027540,12.000000000000030,12.000000000000025));
#235=CARTESIAN_POINT('',(110.0,13.000000000000004,-1.592041E-015));
#236=CARTESIAN_POINT('',(110.600860619027540,12.000000000000032,-1.469576E-015));
#244=(BOUNDED_SURFACE()B_SPLINE_SURFACE(1,2,((#219,#221,#223,#225,#227,#229,#231,#233,#235),(#220,#222,#224,#226,#228,#230,#232,#234,#236)),.UNSPECIFIED.,.F.,.T.,.U.)B_SPLINE_SURFACE_WITH_KNOTS((2,2),(3,2,2,2,3),(-1.166633397215331,-0.987151336105285),(0.0,10.210176124166829,20.420352248333657,30.630528372500482,40.840704496667314),.UNSPECIFIED.)GEOMETRIC_REPRESENTATION_ITEM()RATIONAL_B_SPLINE_SURFACE(((1.0,0.707106781186548,1.0,0.707106781186548,1.0,0.707106781186548,1.0,0.707106781186548,1.0),(1.0,0.707106781186548,1.0,0.707106781186548,1.0,0.707106781186548,1.0,0.707106781186548,1.0)))REPRESENTATION_ITEM('')SURFACE());
#245=CARTESIAN_POINT('',(110.600860619027540,-1.469576E-015,-12.000000000000002));
#246=VERTEX_POINT('',#245);
#247=CARTESIAN_POINT('',(110.600860619027540,0.0,0.0));
#248=DIRECTION('',(-1.0,0.0,0.0));
#249=DIRECTION('',(0.0,0.0,1.0));
#250=AXIS2_PLACEMENT_3D('',#247,#248,#249);
#251=CIRCLE('',#250,12.000000000000002);
#252=EDGE_CURVE('',#246,#246,#251,.T.);
#253=ORIENTED_EDGE('',*,*,#252,.F.);
#254=EDGE_LOOP('',(#253));
#255=FACE_OUTER_BOUND('',#254,.T.);
#256=CARTESIAN_POINT('',(110.0,-13.0,0.0));
#257=VERTEX_POINT('',#256);
#258=CARTESIAN_POINT('',(110.0,0.0,0.0));
#259=DIRECTION('',(-1.0,0.0,0.0));
#260=DIRECTION('',(0.0,-1.0,0.0));
#261=AXIS2_PLACEMENT_3D('',#258,#259,#260);
#262=CIRCLE('',#261,13.0);
#263=EDGE_CURVE('',#257,#257,#262,.T.);
#264=ORIENTED_EDGE('',*,*,#263,.T.);
#265=EDGE_LOOP('',(#264));
#266=FACE_BOUND('',#265,.T.);
#267=ADVANCED_FACE('',(#255,#266),#244,.F.);
#268=CARTESIAN_POINT('',(0.0,13.0,-1.592041E-015));
#269=CARTESIAN_POINT('',(110.0,13.0,-1.592041E-015));
#270=CARTESIAN_POINT('',(0.0,12.999999999999993,-12.999999999999998));
#271=CARTESIAN_POINT('',(110.0,12.999999999999993,-12.999999999999998));
#272=CARTESIAN_POINT('',(0.0,-1.592041E-015,-13.0));
#273=CARTESIAN_POINT('',(110.0,-1.592041E-015,-13.0));
#274=CARTESIAN_POINT('',(0.0,-12.999999999999998,-12.999999999999993));
#275=CARTESIAN_POINT('',(110.0,-12.999999999999998,-12.999999999999993));
#276=CARTESIAN_POINT('',(0.0,-13.0,1.592041E-015));
#277=CARTESIAN_POINT('',(110.0,-13.0,1.592041E-015));
#278=CARTESIAN_POINT('',(0.0,-12.999999999999993,12.999999999999998));
#279=CARTESIAN_POINT('',(110.0,-12.999999999999993,12.999999999999998));
#280=CARTESIAN_POINT('',(0.0,1.592041E-015,13.0));
#281=CARTESIAN_POINT('',(110.0,1.592041E-015,13.0));
#282=CARTESIAN_POINT('',(0.0,12.999999999999998,12.999999999999993));
#283=CARTESIAN_POINT('',(110.0,12.999999999999998,12.999999999999993));
#284=CARTESIAN_POINT('',(0.0,13.0,-1.592041E-015));
#285=CARTESIAN_POINT('',(110.0,13.0,-1.592041E-015));
#293=(BOUNDED_SURFACE()B_SPLINE_SURFACE(1,2,((#268,#270,#272,#274,#276,#278,#280,#282,#284),(#269,#271,#273,#275,#277,#279,#281,#283,#285)),.UNSPECIFIED.,.F.,.T.,.U.)B_SPLINE_SURFACE_WITH_KNOTS((2,2),(3,2,2,2,3),(-4.230769230769231,4.230769230769231),(0.0,20.420352248333657,40.840704496667314,61.261056745000964,81.681408993334628),.UNSPECIFIED.)GEOMETRIC_REPRESENTATION_ITEM()RATIONAL_B_SPLINE_SURFACE(((1.0,0.707106781186548,1.0,0.707106781186548,1.0,0.707106781186548,1.0,0.707106781186548,1.0),(1.0,0.707106781186548,1.0,0.707106781186548,1.0,0.707106781186548,1.0,0.707106781186548,1.0)))REPRESENTATION_ITEM('')SURFACE());
#294=CARTESIAN_POINT('',(0.0,-13.0,0.0));
#295=VERTEX_POINT('',#294);
#296=CARTESIAN_POINT('',(0.0,0.0,0.0));
#297=DIRECTION('',(1.0,0.0,0.0));
#298=DIRECTION('',(0.0,-1.0,0.0));
#299=AXIS2_PLACEMENT_3D('',#296,#297,#298);
#300=CIRCLE('',#299,13.0);
#301=EDGE_CURVE('',#295,#295,#300,.T.);
#302=ORIENTED_EDGE('',*,*,#301,.F.);
#303=EDGE_LOOP('',(#302));
#304=FACE_OUTER_BOUND('',#303,.T.);
#305=ORIENTED_EDGE('',*,*,#263,.F.);
#306=EDGE_LOOP('',(#305));
#307=FACE_BOUND('',#306,.T.);
#308=ADVANCED_FACE('',(#304,#307),#293,.F.);
#309=CARTESIAN_POINT('',(400.0,0.0,0.0));
#310=DIRECTION('',(-1.0,0.0,0.0));
#311=DIRECTION('',(0.0,0.0,1.0));
#312=AXIS2_PLACEMENT_3D('',#309,#310,#311);
#313=CYLINDRICAL_SURFACE('',#312,12.699999999999999);
#314=CARTESIAN_POINT('',(125.0,1.555301E-015,-12.699999999999999));
#315=VERTEX_POINT('',#314);
#316=CARTESIAN_POINT('',(125.0,0.0,0.0));
#317=DIRECTION('',(1.0,0.0,0.0));
#318=DIRECTION('',(0.0,0.0,1.0));
#319=AXIS2_PLACEMENT_3D('',#316,#317,#318);
#320=CIRCLE('',#319,12.699999999999999);
#321=EDGE_CURVE('',#315,#315,#320,.T.);
#322=ORIENTED_EDGE('',*,*,#321,.T.);
#323=EDGE_LOOP('',(#322));
#324=FACE_OUTER_BOUND('',#323,.T.);
#325=CARTESIAN_POINT('',(400.0,1.555301E-015,-12.699999999999999));
#326=VERTEX_POINT('',#325);
#327=CARTESIAN_POINT('',(400.0,0.0,0.0));
#328=DIRECTION('',(1.0,0.0,0.0));
#329=DIRECTION('',(0.0,0.0,1.0));
#330=AXIS2_PLACEMENT_3D('',#327,#328,#329);
#331=CIRCLE('',#330,12.699999999999999);
#332=EDGE_CURVE('',#326,#326,#331,.T.);
#333=ORIENTED_EDGE('',*,*,#332,.F.);
#334=EDGE_LOOP('',(#333));
#335=FACE_BOUND('',#334,.T.);
#336=ADVANCED_FACE('',(#324,#335),#313,.T.);
#337=CARTESIAN_POINT('',(125.0,0.0,0.0));
#338=DIRECTION('',(-1.0,0.0,0.0));
#339=DIRECTION('',(0.0,0.0,1.0));
#340=AXIS2_PLACEMENT_3D('',#337,#338,#339);
#341=PLANE('',#340);
#342=CARTESIAN_POINT('',(125.0,1.834827E-015,-14.982499999999987));
#343=VERTEX_POINT('',#342);
#344=CARTESIAN_POINT('',(125.0,0.0,0.0));
#345=DIRECTION('',(-1.0,0.0,0.0));
#346=DIRECTION('',(0.0,0.0,1.0));
#347=AXIS2_PLACEMENT_3D('',#344,#345,#346);
#348=CIRCLE('',#347,14.982499999999987);
#349=EDGE_CURVE('',#343,#343,#348,.T.);
#350=ORIENTED_EDGE('',*,*,#349,.F.);
#351=EDGE_LOOP('',(#350));
#352=FACE_OUTER_BOUND('',#351,.T.);
#353=ORIENTED_EDGE('',*,*,#321,.F.);
#354=EDGE_LOOP('',(#353));
#355=FACE_BOUND('',#354,.T.);
#356=ADVANCED_FACE('',(#352,#355),#341,.F.);
#357=CARTESIAN_POINT('',(400.0,0.0,0.0));
#358=DIRECTION('',(-1.0,0.0,0.0));
#359=DIRECTION('',(0.0,0.0,1.0));
#360=AXIS2_PLACEMENT_3D('',#357,#358,#359);
#361=CYLINDRICAL_SURFACE('',#360,12.000000000000002);
#362=ORIENTED_EDGE('',*,*,#211,.T.);
#363=EDGE_LOOP('',(#362));
#364=FACE_OUTER_BOUND('',#363,.T.);
#365=ORIENTED_EDGE('',*,*,#252,.T.);
#366=EDGE_LOOP('',(#365));
#367=FACE_BOUND('',#366,.T.);
#368=ADVANCED_FACE('',(#364,#367),#361,.F.);
#369=CARTESIAN_POINT('',(400.0,0.0,0.0));
#370=DIRECTION('',(-1.0,0.0,0.0));
#371=DIRECTION('',(0.0,0.0,1.0));
#372=AXIS2_PLACEMENT_3D('',#369,#370,#371);
#373=CYLINDRICAL_SURFACE('',#372,14.982499999999987);
#374=ORIENTED_EDGE('',*,*,#349,.T.);
#375=EDGE_LOOP('',(#374));
#376=FACE_OUTER_BOUND('',#375,.T.);
#377=CARTESIAN_POINT('',(0.0,1.834827E-015,-14.982499999999987));
#378=VERTEX_POINT('',#377);
#379=CARTESIAN_POINT('',(0.0,0.0,0.0));
#380=DIRECTION('',(1.0,0.0,0.0));
#381=DIRECTION('',(0.0,0.0,1.0));
#382=AXIS2_PLACEMENT_3D('',#379,#380,#381);
#383=CIRCLE('',#382,14.982499999999987);
#384=EDGE_CURVE('',#378,#378,#383,.T.);
#385=ORIENTED_EDGE('',*,*,#384,.T.);
#386=EDGE_LOOP('',(#385));
#387=FACE_BOUND('',#386,.T.);
#388=ADVANCED_FACE('',(#376,#387),#373,.T.);
#389=CARTESIAN_POINT('',(400.0,0.0,0.0));
#390=DIRECTION('',(-1.0,0.0,0.0));
#391=DIRECTION('',(0.0,0.0,1.0));
#392=AXIS2_PLACEMENT_3D('',#389,#390,#391);
#393=PLANE('',#392);
#394=ORIENTED_EDGE('',*,*,#332,.T.);
#395=EDGE_LOOP('',(#394));
#396=FACE_OUTER_BOUND('',#395,.T.);
#397=ORIENTED_EDGE('',*,*,#150,.T.);
#398=EDGE_LOOP('',(#397));
#399=FACE_BOUND('',#398,.T.);
#400=ADVANCED_FACE('',(#396,#399),#393,.F.);
#401=CARTESIAN_POINT('',(0.0,0.0,0.0));
#402=DIRECTION('',(-1.0,0.0,0.0));
#403=DIRECTION('',(0.0,0.0,1.0));
#404=AXIS2_PLACEMENT_3D('',#401,#402,#403);
#405=PLANE('',#404);
#406=ORIENTED_EDGE('',*,*,#384,.F.);
#407=EDGE_LOOP('',(#406));
#408=FACE_OUTER_BOUND('',#407,.T.);
#409=ORIENTED_EDGE('',*,*,#301,.T.);
#410=EDGE_LOOP('',(#409));
#411=FACE_BOUND('',#410,.T.);
#412=ADVANCED_FACE('',(#408,#411),#405,.T.);
#413=CLOSED_SHELL('',(#116,#157,#198,#218,#267,#308,#336,#356,#368,#388,#400,#412));
#414=MANIFOLD_SOLID_BREP('Solid1',#413);
#415=COLOUR_RGB('Metal-Steel',0.639216005802155,0.639216005802155,0.686275005340576);
#416=FILL_AREA_STYLE_COLOUR('Metal-Steel',#415);
#417=FILL_AREA_STYLE('Metal-Steel',(#416));
#418=SURFACE_STYLE_FILL_AREA(#417);
#419=SURFACE_SIDE_STYLE('Metal-Steel',(#418));
#420=SURFACE_STYLE_USAGE(.BOTH.,#419);
#421=PRESENTATION_STYLE_ASSIGNMENT((#420));
#422=STYLED_ITEM('',(#421),#414);
#423=MECHANICAL_DESIGN_GEOMETRIC_PRESENTATION_REPRESENTATION('',(#422),#36);
#424=ADVANCED_BREP_SHAPE_REPRESENTATION('ABSR',(#414),#36);
#425=SHAPE_REPRESENTATION_RELATIONSHIP('SRR','None',#424,#41);
ENDSEC;
END-ISO-10303-21;
